  0
SECTION
  2
HEADER
  9
$ACADVER
  1
AC1015
  9
$ACADMAINTVER
 70
     6
  9
$DWGCODEPAGE
  3
ANSI_1254
  9
$INSBASE
 10
0.0
 20
0.0
 30
0.0
  9
$EXTMIN
 10
0.0
 20
0.0
 30
0.0
  9
$EXTMAX
 10
279.4
 20
215.9
 30
0.0
  9
$LIMMIN
 10
0.0
 20
0.0
  9
$LIMMAX
 10
279.4
 20
215.9
  9
$ORTHOMODE
 70
     0
  9
$REGENMODE
 70
     1
  9
$FILLMODE
 70
     1
  9
$QTEXTMODE
 70
     0
  9
$MIRRTEXT
 70
     1
  9
$LTSCALE
 40
1.0
  9
$ATTMODE
 70
     1
  9
$TEXTSIZE
 40
3.5
  9
$TRACEWID
 40
1.0
  9
$TEXTSTYLE
  7
Standard
  9
$CLAYER
  8
0
  9
$CELTYPE
  6
ByLayer
  9
$CECOLOR
 62
   256
  9
$CELTSCALE
 40
1.0
  9
$DISPSILH
 70
     0
  9
$DIMSCALE
 40
1.0
  9
$DIMASZ
 40
3.5
  9
$DIMEXO
 40
1.0
  9
$DIMDLI
 40
3.75
  9
$DIMRND
 40
0.0
  9
$DIMDLE
 40
0.0
  9
$DIMEXE
 40
1.0
  9
$DIMTP
 40
0.0
  9
$DIMTM
 40
0.0
  9
$DIMTXT
 40
3.5
  9
$DIMCEN
 40
2.5
  9
$DIMTSZ
 40
0.0
  9
$DIMTOL
 70
     0
  9
$DIMLIM
 70
     0
  9
$DIMTIH
 70
     1
  9
$DIMTOH
 70
     1
  9
$DIMSE1
 70
     0
  9
$DIMSE2
 70
     0
  9
$DIMTAD
 70
     1
  9
$DIMZIN
 70
     0
  9
$DIMBLK
  1

  9
$DIMASO
 70
     1
  9
$DIMSHO
 70
     1
  9
$DIMPOST
  1

  9
$DIMAPOST
  1

  9
$DIMALT
 70
     0
  9
$DIMALTD
 70
     3
  9
$DIMALTF
 40
0.0393700787
  9
$DIMLFAC
 40
1.0
  9
$DIMTOFL
 70
     1
  9
$DIMTVP
 40
0.0
  9
$DIMTIX
 70
     0
  9
$DIMSOXD
 70
     0
  9
$DIMSAH
 70
     0
  9
$DIMBLK1
  1

  9
$DIMBLK2
  1

  9
$DIMSTYLE
  2
ISO-25
  9
$DIMCLRD
 70
     0
  9
$DIMCLRE
 70
     0
  9
$DIMCLRT
 70
     0
  9
$DIMTFAC
 40
1.0
  9
$DIMGAP
 40
1.524
  9
$DIMJUST
 70
     0
  9
$DIMSD1
 70
     0
  9
$DIMSD2
 70
     0
  9
$DIMTOLJ
 70
     0
  9
$DIMTZIN
 70
     0
  9
$DIMALTZ
 70
     0
  9
$DIMALTTZ
 70
     0
  9
$DIMUPT
 70
     0
  9
$DIMDEC
 70
     2
  9
$DIMTDEC
 70
     2
  9
$DIMALTU
 70
     2
  9
$DIMALTTD
 70
     3
  9
$DIMTXSTY
  7
Standard
  9
$DIMAUNIT
 70
     0
  9
$DIMADEC
 70
     2
  9
$DIMALTRND
 40
0.0
  9
$DIMAZIN
 70
     0
  9
$DIMDSEP
 70
    44
  9
$DIMATFIT
 70
     3
  9
$DIMFRAC
 70
     0
  9
$DIMLDRBLK
  1

  9
$DIMLUNIT
 70
     2
  9
$DIMLWD
 70
    -2
  9
$DIMLWE
 70
    -2
  9
$DIMTMOVE
 70
     0
  9
$LUNITS
 70
     2
  9
$LUPREC
 70
     2
  9
$SKETCHINC
 40
1.0
  9
$FILLETRAD
 40
10.0
  9
$AUNITS
 70
     0
  9
$AUPREC
 70
     2
  9
$MENU
  1
.
  9
$ELEVATION
 40
0.0
  9
$PELEVATION
 40
0.0
  9
$THICKNESS
 40
0.0
  9
$LIMCHECK
 70
     0
  9
$CHAMFERA
 40
0.0
  9
$CHAMFERB
 40
0.0
  9
$CHAMFERC
 40
0.0
  9
$CHAMFERD
 40
0.0
  9
$SKPOLY
 70
     0
  9
$TDCREATE
 40
2458985.705945185
  9
$TDUCREATE
 40
2458985.580945185
  9
$TDUPDATE
 40
2458985.705945648
  9
$TDUUPDATE
 40
2458985.580945648
  9
$TDINDWG
 40
0.0000000116
  9
$TDUSRTIMER
 40
0.0000000116
  9
$USRTIMER
 70
     1
  9
$ANGBASE
 50
0.0
  9
$ANGDIR
 70
     0
  9
$PDMODE
 70
     0
  9
$PDSIZE
 40
-1.0
  9
$PLINEWID
 40
0.0
  9
$SPLFRAME
 70
     0
  9
$SPLINETYPE
 70
     6
  9
$SPLINESEGS
 70
     8
  9
$HANDSEED
  5
F1
  9
$SURFTAB1
 70
     6
  9
$SURFTAB2
 70
     6
  9
$SURFTYPE
 70
     6
  9
$SURFU
 70
     6
  9
$SURFV
 70
     6
  9
$UCSBASE
  2

  9
$UCSNAME
  2

  9
$UCSORG
 10
0.0
 20
0.0
 30
0.0
  9
$UCSXDIR
 10
1.0
 20
0.0
 30
0.0
  9
$UCSYDIR
 10
0.0
 20
1.0
 30
0.0
  9
$UCSORTHOREF
  2

  9
$UCSORTHOVIEW
 70
     0
  9
$UCSORGTOP
 10
0.0
 20
0.0
 30
0.0
  9
$UCSORGBOTTOM
 10
0.0
 20
0.0
 30
0.0
  9
$UCSORGLEFT
 10
0.0
 20
0.0
 30
0.0
  9
$UCSORGRIGHT
 10
0.0
 20
0.0
 30
0.0
  9
$UCSORGFRONT
 10
0.0
 20
0.0
 30
0.0
  9
$UCSORGBACK
 10
0.0
 20
0.0
 30
0.0
  9
$PUCSBASE
  2

  9
$PUCSNAME
  2

  9
$PUCSORG
 10
0.0
 20
0.0
 30
0.0
  9
$PUCSXDIR
 10
1.0
 20
0.0
 30
0.0
  9
$PUCSYDIR
 10
0.0
 20
1.0
 30
0.0
  9
$PUCSORTHOREF
  2

  9
$PUCSORTHOVIEW
 70
     0
  9
$PUCSORGTOP
 10
0.0
 20
0.0
 30
0.0
  9
$PUCSORGBOTTOM
 10
0.0
 20
0.0
 30
0.0
  9
$PUCSORGLEFT
 10
0.0
 20
0.0
 30
0.0
  9
$PUCSORGRIGHT
 10
0.0
 20
0.0
 30
0.0
  9
$PUCSORGFRONT
 10
0.0
 20
0.0
 30
0.0
  9
$PUCSORGBACK
 10
0.0
 20
0.0
 30
0.0
  9
$USERI1
 70
     0
  9
$USERI2
 70
     0
  9
$USERI3
 70
     0
  9
$USERI4
 70
     0
  9
$USERI5
 70
     0
  9
$USERR1
 40
0.0
  9
$USERR2
 40
0.0
  9
$USERR3
 40
0.0
  9
$USERR4
 40
0.0
  9
$USERR5
 40
0.0
  9
$WORLDVIEW
 70
     1
  9
$SHADEDGE
 70
     3
  9
$SHADEDIF
 70
    70
  9
$TILEMODE
 70
     1
  9
$MAXACTVP
 70
    64
  9
$PINSBASE
 10
0.0
 20
0.0
 30
0.0
  9
$PLIMCHECK
 70
     0
  9
$PEXTMIN
 10
1.0000000000E+20
 20
1.0000000000E+20
 30
1.0000000000E+20
  9
$PEXTMAX
 10
-1.0000000000E+20
 20
-1.0000000000E+20
 30
-1.0000000000E+20
  9
$PLIMMIN
 10
0.0
 20
0.0
  9
$PLIMMAX
 10
420.0
 20
297.0
  9
$UNITMODE
 70
     0
  9
$VISRETAIN
 70
     1
  9
$PLINEGEN
 70
     0
  9
$PSLTSCALE
 70
     1
  9
$TREEDEPTH
 70
  3020
  9
$CMLSTYLE
  2
Standard
  9
$CMLJUST
 70
     0
  9
$CMLSCALE
 40
20.0
  9
$PROXYGRAPHICS
 70
     1
  9
$MEASUREMENT
 70
     1
  9
$CELWEIGHT
370
    -1
  9
$ENDCAPS
280
     0
  9
$JOINSTYLE
280
     0
  9
$LWDISPLAY
290
     1
  9
$INSUNITS
 70
     4
  9
$HYPERLINKBASE
  1

  9
$STYLESHEET
  1

  9
$XEDIT
290
     1
  9
$CEPSNTYPE
380
     0
  9
$PSTYLEMODE
290
     1
  9
$FINGERPRINTGUID
  2
{8c89ed64-2669-40d8-b8a4-03c3ce46a8bf}
  9
$VERSIONGUID
  2
{FAEB1C32-E019-11D5-929B-00C0DF256EC4}
  9
$EXTNAMES
290
     1
  9
$PSVPSCALE
 40
0.0
  9
$OLESTARTUP
290
     0
  0
ENDSEC
  0
SECTION
  2
CLASSES
  0
CLASS
  1
ACDBDICTIONARYWDFLT
  2
AcDbDictionaryWithDefault
  3
ObjectDBX Classes
 90
        0
280
     0
281
     0
  0
CLASS
  1
VISUALSTYLE
  2
AcDbVisualStyle
  3
ObjectDBX Classes
 90
     4095
280
     0
281
     0
  0
CLASS
  1
MATERIAL
  2
AcDbMaterial
  3
ObjectDBX Classes
 90
     1153
280
     0
281
     0
  0
CLASS
  1
SCALE
  2
AcDbScale
  3
ObjectDBX Classes
 90
     1153
280
     0
281
     0
  0
CLASS
  1
TABLESTYLE
  2
AcDbTableStyle
  3
ObjectDBX Classes
 90
     4095
280
     0
281
     0
  0
CLASS
  1
MLEADERSTYLE
  2
AcDbMLeaderStyle
  3
ACDB_MLEADERSTYLE_CLASS
 90
     4095
280
     0
281
     0
  0
CLASS
  1
SUN
  2
AcDbSun
  3
SCENEOE
 90
     1153
280
     0
281
     0
  0
CLASS
  1
ACDBPLACEHOLDER
  2
AcDbPlaceHolder
  3
ObjectDBX Classes
 90
        0
280
     0
281
     0
  0
CLASS
  1
LAYOUT
  2
AcDbLayout
  3
ObjectDBX Classes
 90
        0
280
     0
281
     0
  0
ENDSEC
  0
SECTION
  2
TABLES
  0
TABLE
  2
VPORT
  5
8
330
0
100
AcDbSymbolTable
 70
     1
  0
VPORT
  5
29
330
8
100
AcDbSymbolTableRecord
100
AcDbViewportTableRecord
  2
*Active
 70
     0
 10
0.0
 20
0.0
 11
1.0
 21
1.0
 12
139.7
 22
107.95
 13
0.0
 23
0.0
 14
10.0
 24
10.0
 15
10.0
 25
10.0
 16
0.0
 26
0.0
 36
1.0
 17
0.0
 27
0.0
 37
0.0
 40
215.9
 41
1.2941176471
 42
50.0
 43
0.0
 44
0.0
 50
0.0
 51
0.0
 71
     0
 72
  2000
 73
     1
 74
     3
 75
     0
 76
     0
 77
     0
 78
     0
281
     0
 65
     1
110
0.0
120
0.0
130
0.0
111
1.0
121
0.0
131
0.0
112
0.0
122
1.0
132
0.0
 79
     0
146
0.0
  0
ENDTAB
  0
TABLE
  2
LTYPE
  5
5
330
0
100
AcDbSymbolTable
 70
     6
  0
LTYPE
  5
14
330
5
100
AcDbSymbolTableRecord
100
AcDbLinetypeTableRecord
  2
ByBlock
 70
     0
  3

 72
    65
 73
     0
 40
0.0
  0
LTYPE
  5
15
330
5
100
AcDbSymbolTableRecord
100
AcDbLinetypeTableRecord
  2
ByLayer
 70
     0
  3

 72
    65
 73
     0
 40
0.0
  0
LTYPE
  5
16
330
5
100
AcDbSymbolTableRecord
100
AcDbLinetypeTableRecord
  2
Continuous
 70
     0
  3
Solid line
 72
    65
 73
     0
 40
0.0
  0
LTYPE
  5
6E
330
5
100
AcDbSymbolTableRecord
100
AcDbLinetypeTableRecord
  2
HIDDEN
 70
     0
  3
Hidden __ __ __ __ __ __ __ __ __ __ __ __ __ __
 72
    65
 73
     2
 40
1.905
 49
1.27
 74
     0
 49
-0.635
 74
     0
  0
LTYPE
  5
6F
330
5
100
AcDbSymbolTableRecord
100
AcDbLinetypeTableRecord
  2
PHANTOM
 70
     0
  3
Phantom ______  __  __  ______  __  __  ______
 72
    65
 73
     6
 40
12.7
 49
6.35
 74
     0
 49
-1.27
 74
     0
 49
1.27
 74
     0
 49
-1.27
 74
     0
 49
1.27
 74
     0
 49
-1.27
 74
     0
  0
LTYPE
  5
70
330
5
100
AcDbSymbolTableRecord
100
AcDbLinetypeTableRecord
  2
CENTER
 70
     0
  3
Center ____ _ ____ _ ____ _ ____ _ ____ _ ____
 72
    65
 73
     4
 40
10.16
 49
6.35
 74
     0
 49
-1.27
 74
     0
 49
1.27
 74
     0
 49
-1.27
 74
     0
  0
LTYPE
  5
71
330
5
100
AcDbSymbolTableRecord
100
AcDbLinetypeTableRecord
  2
CENTERX2
 70
     0
  3
Center (2x) ________  __  ________  __  _____
 72
    65
 73
     4
 40
20.32
 49
12.7
 74
     0
 49
-2.54
 74
     0
 49
2.54
 74
     0
 49
-2.54
 74
     0
  0
LTYPE
  5
72
330
5
100
AcDbSymbolTableRecord
100
AcDbLinetypeTableRecord
  2
DOT2
 70
     0
  3
Dot (.5x) ........................................
 72
    65
 73
     2
 40
0.635
 49
0.0
 74
     0
 49
-0.635
 74
     0
  0
ENDTAB
  0
TABLE
  2
LAYER
  5
2
330
0
100
AcDbSymbolTable
 70
    17
  0
LAYER
  5
10
330
2
100
AcDbSymbolTableRecord
100
AcDbLayerTableRecord
  2
0
 70
     0
 62
     7
  6
Continuous
370
    -3
390
F
  0
LAYER
  5
73
330
2
100
AcDbSymbolTableRecord
100
AcDbLayerTableRecord
  2
FORMAT
 70
     0
 62
     7
  6
Continuous
370
    -3
390
F
  0
LAYER
  5
74
330
2
100
AcDbSymbolTableRecord
100
AcDbLayerTableRecord
  2
YARDIMCI_GEOMETRI
 70
     0
 62
    -6
  6
Continuous
290
     0
370
    -3
390
F
  0
LAYER
  5
75
330
2
100
AcDbSymbolTableRecord
100
AcDbLayerTableRecord
  2
SAYFA_CERCEVESI
 70
     0
 62
     7
  6
Continuous
370
    25
390
F
  0
LAYER
  5
76
330
2
100
AcDbSymbolTableRecord
100
AcDbLayerTableRecord
  2
ANTET
 70
     0
 62
     7
  6
Continuous
370
    -3
390
F
  0
LAYER
  5
77
330
2
100
AcDbSymbolTableRecord
100
AcDbLayerTableRecord
  2
OLCU
 70
     0
 62
   150
  6
Continuous
370
    -3
390
F
  0
LAYER
  5
78
330
2
100
AcDbSymbolTableRecord
100
AcDbLayerTableRecord
  2
METIN
 70
     0
 62
    96
  6
Continuous
370
    -3
390
F
  0
LAYER
  5
79
330
2
100
AcDbSymbolTableRecord
100
AcDbLayerTableRecord
  2
BALON
 70
     0
 62
     5
  6
Continuous
370
    -3
390
F
  0
LAYER
  5
7A
330
2
100
AcDbSymbolTableRecord
100
AcDbLayerTableRecord
  2
VURGU
 70
     0
 62
     7
  6
Continuous
370
    -3
390
F
  0
LAYER
  5
7B
330
2
100
AcDbSymbolTableRecord
100
AcDbLayerTableRecord
  2
SILIK
 70
     0
 62
     7
  6
Continuous
370
    -3
390
F
  0
LAYER
  5
7C
330
2
100
AcDbSymbolTableRecord
100
AcDbLayerTableRecord
  2
MODEL
 70
     0
 62
     7
  6
Continuous
370
    -3
390
F
  0
LAYER
  5
7D
330
2
100
AcDbSymbolTableRecord
100
AcDbLayerTableRecord
  2
DETAYLANDıRMA
 70
     0
 62
   190
  6
Continuous
370
    -3
390
F
  0
LAYER
  5
7E
330
2
100
AcDbSymbolTableRecord
100
AcDbLayerTableRecord
  2
TOLERANS
 70
     0
 62
   230
  6
Continuous
370
    -3
390
F
  0
LAYER
  5
7F
330
2
100
AcDbSymbolTableRecord
100
AcDbLayerTableRecord
  2
MERKEZ_CIZGILERI
 70
     0
 62
    30
  6
Continuous
370
    -3
390
F
  0
LAYER
  5
80
330
2
100
AcDbSymbolTableRecord
100
AcDbLayerTableRecord
  2
KESIT-DETAY_CIZGILERI
 70
     0
 62
     7
  6
Continuous
370
    -3
390
F
  0
LAYER
  5
81
330
2
100
AcDbSymbolTableRecord
100
AcDbLayerTableRecord
  2
\U+041E\U+0421\U+0415\U+0412\U+042B\U+0415
 70
     0
 62
     7
  6
Continuous
370
    -3
390
F
  0
LAYER
  5
82
330
2
100
AcDbSymbolTableRecord
100
AcDbLayerTableRecord
  2
\U+0412\U+041E\U+0414\U+042F\U+041D\U+042B\U+0415_\U+0417\U+041D\U+0410\U+041A\U+0418
 70
     0
 62
    11
  6
Continuous
370
    -3
390
F
  0
ENDTAB
  0
TABLE
  2
STYLE
  5
3
330
0
100
AcDbSymbolTable
 70
     1
  0
STYLE
  5
11
330
3
100
AcDbSymbolTableRecord
100
AcDbTextStyleTableRecord
  2
Standard
 70
     0
 40
0.0
 41
1.0
 50
0.0
 71
     0
 42
3.5
  3
txt
  4

  0
ENDTAB
  0
TABLE
  2
VIEW
  5
6
330
0
100
AcDbSymbolTable
 70
     0
  0
ENDTAB
  0
TABLE
  2
UCS
  5
7
330
0
100
AcDbSymbolTable
 70
     0
  0
ENDTAB
  0
TABLE
  2
APPID
  5
9
330
0
100
AcDbSymbolTable
 70
     1
  0
APPID
  5
12
330
9
100
AcDbSymbolTableRecord
100
AcDbRegAppTableRecord
  2
ACAD
 70
     0
  0
ENDTAB
  0
TABLE
  2
DIMSTYLE
  5
A
330
0
100
AcDbSymbolTable
 70
     1
100
AcDbDimStyleTable
  0
DIMSTYLE
105
27
330
A
100
AcDbSymbolTableRecord
100
AcDbDimStyleTableRecord
  2
ISO-25
 70
     0
 41
2.5
 42
0.625
 43
3.75
 44
1.25
 73
     0
 74
     0
 77
     1
 78
     8
140
2.5
141
2.5
143
0.0393700787
147
0.625
171
     3
172
     1
178
     0
271
     2
272
     2
274
     3
278
    44
283
     0
284
     8
340
11
  0
ENDTAB
  0
TABLE
  2
BLOCK_RECORD
  5
1
330
0
100
AcDbSymbolTable
 70
     2
  0
BLOCK_RECORD
  5
1F
330
1
100
AcDbSymbolTableRecord
100
AcDbBlockTableRecord
  2
*Model_Space
340
22
  0
BLOCK_RECORD
  5
1B
330
1
100
AcDbSymbolTableRecord
100
AcDbBlockTableRecord
  2
*Paper_Space
340
1E
  0
BLOCK_RECORD
  5
23
330
1
100
AcDbSymbolTableRecord
100
AcDbBlockTableRecord
  2
*Paper_Space0
340
26
  0
BLOCK_RECORD
  5
88
330
1
100
AcDbSymbolTableRecord
100
AcDbBlockTableRecord
  2
SW_CENTERMARKSYMBOL_0
340
0
102
{BLKREFS
331
93
102
}
  0
ENDTAB
  0
ENDSEC
  0
SECTION
  2
BLOCKS
  0
BLOCK
  5
20
330
1F
100
AcDbEntity
  8
0
100
AcDbBlockBegin
  2
*Model_Space
 70
     0
 10
0.0
 20
0.0
 30
0.0
  3
*Model_Space
  1

  0
ENDBLK
  5
21
330
1F
100
AcDbEntity
  8
0
100
AcDbBlockEnd
  0
BLOCK
  5
1C
330
1B
100
AcDbEntity
 67
     1
  8
0
100
AcDbBlockBegin
  2
*Paper_Space
 70
     0
 10
0.0
 20
0.0
 30
0.0
  3
*Paper_Space
  1

  0
ENDBLK
  5
1D
330
1B
100
AcDbEntity
 67
     1
  8
0
100
AcDbBlockEnd
  0
BLOCK
  5
24
330
23
100
AcDbEntity
  8
0
100
AcDbBlockBegin
  2
*Paper_Space0
 70
     0
 10
0.0
 20
0.0
 30
0.0
  3
*Paper_Space0
  1

  0
ENDBLK
  5
25
330
23
100
AcDbEntity
  8
0
100
AcDbBlockEnd
  0
BLOCK
  5
89
330
88
100
AcDbEntity
  8
0
100
AcDbBlockBegin
  2
SW_CENTERMARKSYMBOL_0
 70
     0
 10
0.0
 20
0.0
 30
0.0
  3
SW_CENTERMARKSYMBOL_0
  1

  0
LINE
  5
8B
330
88
100
AcDbEntity
  8
FORMAT
 62
     0
100
AcDbLine
 10
0.0
 20
0.0
 30
0.0
 11
0.0
 21
2.5
 31
0.0
  0
LINE
  5
8C
330
88
100
AcDbEntity
  8
FORMAT
 62
     0
100
AcDbLine
 10
0.0
 20
0.0
 30
0.0
 11
-2.5
 21
0.0
 31
0.0
  0
LINE
  5
8D
330
88
100
AcDbEntity
  8
FORMAT
 62
     0
100
AcDbLine
 10
0.0
 20
0.0
 30
0.0
 11
0.0
 21
-2.5
 31
0.0
  0
LINE
  5
8E
330
88
100
AcDbEntity
  8
FORMAT
 62
     0
100
AcDbLine
 10
0.0
 20
0.0
 30
0.0
 11
2.5
 21
0.0
 31
0.0
  0
LINE
  5
8F
330
88
100
AcDbEntity
  8
FORMAT
 62
     0
100
AcDbLine
 10
0.0
 20
5.0
 30
0.0
 11
0.0
 21
115.0
 31
0.0
  0
LINE
  5
90
330
88
100
AcDbEntity
  8
FORMAT
 62
     0
100
AcDbLine
 10
-5.0
 20
0.0
 30
0.0
 11
-115.0
 21
0.0
 31
0.0
  0
LINE
  5
91
330
88
100
AcDbEntity
  8
FORMAT
 62
     0
100
AcDbLine
 10
0.0
 20
-5.0
 30
0.0
 11
0.0
 21
-115.0
 31
0.0
  0
LINE
  5
92
330
88
100
AcDbEntity
  8
FORMAT
 62
     0
100
AcDbLine
 10
5.0
 20
0.0
 30
0.0
 11
115.0
 21
0.0
 31
0.0
  0
ENDBLK
  5
8A
330
88
100
AcDbEntity
  8
0
100
AcDbBlockEnd
  0
ENDSEC
  0
SECTION
  2
ENTITIES
  0
CIRCLE
  5
83
330
1F
100
AcDbEntity
  8
0
  6
Continuous
 62
     7
370
    25
100
AcDbCircle
 10
130.6810329512
 20
112.0420513222
 30
0.0
 40
112.5
  0
CIRCLE
  5
84
330
1F
100
AcDbEntity
  8
0
  6
Continuous
 62
     7
370
    25
100
AcDbCircle
 10
130.6810329512
 20
112.0420513222
 30
0.0
 40
99.10000000000002
  0
CIRCLE
  5
85
330
1F
100
AcDbEntity
  8
0
  6
Continuous
 62
     7
370
    25
100
AcDbCircle
 10
130.6810329512
 20
112.0420513222
 30
0.0
 40
98.7277347810284
  0
CIRCLE
  5
86
330
1F
100
AcDbEntity
  8
0
  6
Continuous
 62
     7
370
    25
100
AcDbCircle
 10
130.6810329512
 20
112.0420513222
 30
0.0
 40
79.67226521897163
  0
CIRCLE
  5
87
330
1F
100
AcDbEntity
  8
0
  6
Continuous
 62
     7
370
    25
100
AcDbCircle
 10
130.6810329512
 20
112.0420513222
 30
0.0
 40
79.30000000000001
  0
INSERT
  5
93
330
1F
100
AcDbEntity
  8
FORMAT
 62
     7
100
AcDbBlockReference
  2
SW_CENTERMARKSYMBOL_0
 10
130.6810329512
 20
112.0420513222
 30
0.0
  0
LINE
  5
94
330
1F
100
AcDbEntity
  8
0
  6
Continuous
 62
     7
370
    25
100
AcDbLine
 10
-216.5581072665
 20
224.542048342
 30
0.0
 11
-336.1648312754
 21
224.542048342
 31
0.0
  0
LINE
  5
95
330
1F
100
AcDbEntity
  8
0
  6
Continuous
 62
     7
370
    25
100
AcDbLine
 10
-336.1648312754
 20
-0.4579456975
 30
0.0
 11
-216.5581072665
 21
-0.4579456975
 31
0.0
  0
ARC
  5
96
330
1F
100
AcDbEntity
  8
0
  6
Continuous
 62
     7
370
    25
100
AcDbCircle
 10
-216.5581071216
 20
222.5420513222
 30
0.0
 40
2.0
100
AcDbArc
 50
67.7509763428
 51
90.0
  0
ARC
  5
97
330
1F
100
AcDbEntity
  8
0
  6
Continuous
 62
     7
370
    25
100
AcDbCircle
 10
-216.5581071216
 20
1.5420513222
 30
0.0
 40
1.999999999999988
100
AcDbArc
 50
270.0
 51
292.2490236572
  0
LINE
  5
98
330
1F
100
AcDbEntity
  8
0
  6
Continuous
 62
     7
370
    25
100
AcDbLine
 10
-215.8008414305
 20
-0.3090458443
 30
0.0
 11
-161.5288267827
 21
21.8931478927
 31
0.0
  0
LINE
  5
99
330
1F
100
AcDbEntity
  8
0
  6
Continuous
 62
     7
370
    25
100
AcDbLine
 10
-161.5288267827
 20
202.1909547517
 30
0.0
 11
-215.8008414305
 21
224.3931484888
 31
0.0
  0
ARC
  5
9A
330
1F
100
AcDbEntity
  8
0
  6
Continuous
 62
     7
370
    25
100
AcDbCircle
 10
-160.7715610558
 20
204.0420513222
 30
0.0
 40
1.999999999999977
100
AcDbArc
 50
247.7509763428
 51
270.0
  0
ARC
  5
9B
330
1F
100
AcDbEntity
  8
0
  6
Continuous
 62
     7
370
    25
100
AcDbCircle
 10
-160.7715610558
 20
20.0420513222
 30
0.0
 40
1.999999999999986
100
AcDbArc
 50
90.0
 51
112.2490236572
  0
LINE
  5
9C
330
1F
100
AcDbEntity
  8
0
  6
Continuous
 62
     7
370
    25
100
AcDbLine
 10
-56.1648300833
 20
202.0420548985
 30
0.0
 11
-160.7715609467
 21
202.0420548985
 31
0.0
  0
LINE
  5
9D
330
1F
100
AcDbEntity
  8
0
  6
Continuous
 62
     7
370
    25
100
AcDbLine
 10
-160.7715609467
 20
22.0420477459
 30
0.0
 11
-56.1648300833
 21
22.0420477459
 31
0.0
  0
LINE
  5
9E
330
1F
100
AcDbEntity
  8
0
  6
Continuous
 62
     7
370
    25
100
AcDbLine
 10
-336.1648312754
 20
224.542048342
 30
0.0
 11
-336.1648312754
 21
-0.4579456975
 31
0.0
  0
LINE
  5
9F
330
1F
100
AcDbEntity
  8
0
  6
Continuous
 62
     7
370
    25
100
AcDbLine
 10
-56.1648300833
 20
202.0420548985
 30
0.0
 11
-56.1648300833
 21
22.0420477459
 31
0.0
  0
LINE
  5
A0
330
1F
100
AcDbEntity
  8
0
  6
Continuous
 62
     1
370
    25
100
AcDbLine
 10
-216.5581072665
 20
224.542048342
 30
0.0
 11
-216.5581072665
 21
-0.4579456975
 31
0.0
  0
LINE
  5
A1
330
1F
100
AcDbEntity
  8
0
  6
Continuous
 62
     1
370
    25
100
AcDbLine
 10
-215.8008414305
 20
224.3931484888
 30
0.0
 11
-215.8008414305
 21
-0.3090458443
 31
0.0
  0
LINE
  5
A2
330
1F
100
AcDbEntity
  8
0
  6
Continuous
 62
     1
370
    25
100
AcDbLine
 10
-161.5288267827
 20
202.1909547517
 30
0.0
 11
-161.5288267827
 21
21.8931478927
 31
0.0
  0
LINE
  5
A3
330
1F
100
AcDbEntity
  8
0
  6
Continuous
 62
     1
370
    25
100
AcDbLine
 10
-160.7715609467
 20
202.0420548985
 30
0.0
 11
-160.7715609467
 21
22.0420477459
 31
0.0
  0
LINE
  5
A4
330
1F
100
AcDbEntity
  8
0
  6
Continuous
 62
     7
370
    25
100
AcDbLine
 10
243.1810299709
 20
419.8085462894
 30
0.0
 11
243.1810299709
 21
539.4152702983
 31
0.0
  0
LINE
  5
A5
330
1F
100
AcDbEntity
  8
0
  6
Continuous
 62
     7
370
    25
100
AcDbLine
 10
18.1810359314
 20
539.4152702983
 30
0.0
 11
18.1810359314
 21
419.8085462894
 31
0.0
  0
ARC
  5
A6
330
1F
100
AcDbEntity
  8
0
  6
Continuous
 62
     7
370
    25
100
AcDbCircle
 10
241.1810329512
 20
419.8085461445
 30
0.0
 40
1.999999999999987
100
AcDbArc
 50
337.7509763428
 51
0.0
  0
ARC
  5
A7
330
1F
100
AcDbEntity
  8
0
  6
Continuous
 62
     7
370
    25
100
AcDbCircle
 10
20.1810329512
 20
419.8085461445
 30
0.0
 40
1.999999999999997
100
AcDbArc
 50
180.0
 51
202.2490236572
  0
LINE
  5
A8
330
1F
100
AcDbEntity
  8
0
  6
Continuous
 62
     7
370
    25
100
AcDbLine
 10
18.3299357846
 20
419.0512804534
 30
0.0
 11
40.5321295217
 21
364.7792658057
 31
0.0
  0
LINE
  5
A9
330
1F
100
AcDbEntity
  8
0
  6
Continuous
 62
     7
370
    25
100
AcDbLine
 10
220.8299363807
 20
364.7792658057
 30
0.0
 11
243.0321301177
 21
419.0512804534
 31
0.0
  0
ARC
  5
AA
330
1F
100
AcDbEntity
  8
0
  6
Continuous
 62
     7
370
    25
100
AcDbCircle
 10
222.6810329512
 20
364.0220000788
 30
0.0
 40
1.999999999999987
100
AcDbArc
 50
157.7509763428
 51
180.0
  0
ARC
  5
AB
330
1F
100
AcDbEntity
  8
0
  6
Continuous
 62
     7
370
    25
100
AcDbCircle
 10
38.6810329512
 20
364.0220000788
 30
0.0
 40
2.0
100
AcDbArc
 50
0.0
 51
22.2490236572
  0
LINE
  5
AC
330
1F
100
AcDbEntity
  8
0
  6
Continuous
 62
     7
370
    25
100
AcDbLine
 10
220.6810365274
 20
259.4152691062
 30
0.0
 11
220.6810365274
 21
364.0219999697
 31
0.0
  0
LINE
  5
AD
330
1F
100
AcDbEntity
  8
0
  6
Continuous
 62
     7
370
    25
100
AcDbLine
 10
40.6810293749
 20
364.0219999697
 30
0.0
 11
40.6810293749
 21
259.4152691062
 31
0.0
  0
LINE
  5
AE
330
1F
100
AcDbEntity
  8
0
  6
Continuous
 62
     7
370
    25
100
AcDbLine
 10
243.1810299709
 20
539.4152702983
 30
0.0
 11
18.1810359314
 21
539.4152702983
 31
0.0
  0
LINE
  5
AF
330
1F
100
AcDbEntity
  8
0
  6
Continuous
 62
     7
370
    25
100
AcDbLine
 10
220.6810365274
 20
259.4152691062
 30
0.0
 11
40.6810293749
 21
259.4152691062
 31
0.0
  0
LINE
  5
B0
330
1F
100
AcDbEntity
  8
0
  6
Continuous
 62
     1
370
    25
100
AcDbLine
 10
243.1810299709
 20
419.8085462894
 30
0.0
 11
18.1810359314
 21
419.8085462894
 31
0.0
  0
LINE
  5
B1
330
1F
100
AcDbEntity
  8
0
  6
Continuous
 62
     1
370
    25
100
AcDbLine
 10
243.0321301177
 20
419.0512804534
 30
0.0
 11
18.3299357846
 21
419.0512804534
 31
0.0
  0
LINE
  5
B2
330
1F
100
AcDbEntity
  8
0
  6
Continuous
 62
     1
370
    25
100
AcDbLine
 10
220.8299363807
 20
364.7792658057
 30
0.0
 11
40.5321295217
 21
364.7792658057
 31
0.0
  0
LINE
  5
B3
330
1F
100
AcDbEntity
  8
0
  6
Continuous
 62
     1
370
    25
100
AcDbLine
 10
220.6810365274
 20
364.0219999697
 30
0.0
 11
40.6810293749
 21
364.0219999697
 31
0.0
  0
LINE
  5
B4
330
1F
100
AcDbEntity
  8
0
  6
Continuous
 62
     7
370
    25
100
AcDbLine
 10
482.040401784
 20
-0.4579456975
 30
0.0
 11
601.6471257929
 21
-0.4579456975
 31
0.0
  0
LINE
  5
B5
330
1F
100
AcDbEntity
  8
0
  6
Continuous
 62
     7
370
    25
100
AcDbLine
 10
601.6471257929
 20
224.542048342
 30
0.0
 11
482.040401784
 21
224.542048342
 31
0.0
  0
ARC
  5
B6
330
1F
100
AcDbEntity
  8
0
  6
Continuous
 62
     7
370
    25
100
AcDbCircle
 10
482.0404016391
 20
1.5420513222
 30
0.0
 40
1.999999999999988
100
AcDbArc
 50
247.7509763428
 51
270.0
  0
ARC
  5
B7
330
1F
100
AcDbEntity
  8
0
  6
Continuous
 62
     7
370
    25
100
AcDbCircle
 10
482.0404016391
 20
222.5420513222
 30
0.0
 40
2.0
100
AcDbArc
 50
90.0
 51
112.2490236572
  0
LINE
  5
B8
330
1F
100
AcDbEntity
  8
0
  6
Continuous
 62
     7
370
    25
100
AcDbLine
 10
481.283135948
 20
224.3931484888
 30
0.0
 11
427.0111213003
 21
202.1909547517
 31
0.0
  0
LINE
  5
B9
330
1F
100
AcDbEntity
  8
0
  6
Continuous
 62
     7
370
    25
100
AcDbLine
 10
427.0111213003
 20
21.8931478927
 30
0.0
 11
481.283135948
 21
-0.3090458443
 31
0.0
  0
ARC
  5
BA
330
1F
100
AcDbEntity
  8
0
  6
Continuous
 62
     7
370
    25
100
AcDbCircle
 10
426.2538555733
 20
20.0420513222
 30
0.0
 40
1.999999999999986
100
AcDbArc
 50
67.7509763428
 51
90.0
  0
ARC
  5
BB
330
1F
100
AcDbEntity
  8
0
  6
Continuous
 62
     7
370
    25
100
AcDbCircle
 10
426.2538555733
 20
204.0420513222
 30
0.0
 40
1.999999999999972
100
AcDbArc
 50
270.0
 51
292.2490236572
  0
LINE
  5
BC
330
1F
100
AcDbEntity
  8
0
  6
Continuous
 62
     7
370
    25
100
AcDbLine
 10
321.6471246008
 20
22.0420477459
 30
0.0
 11
426.2538554643
 21
22.0420477459
 31
0.0
  0
LINE
  5
BD
330
1F
100
AcDbEntity
  8
0
  6
Continuous
 62
     7
370
    25
100
AcDbLine
 10
426.2538554643
 20
202.0420548985
 30
0.0
 11
321.6471246008
 21
202.0420548985
 31
0.0
  0
LINE
  5
BE
330
1F
100
AcDbEntity
  8
0
  6
Continuous
 62
     7
370
    25
100
AcDbLine
 10
601.6471257929
 20
112.0420513222
 30
0.0
 11
601.6471257929
 21
224.542048342
 31
0.0
  0
LINE
  5
BF
330
1F
100
AcDbEntity
  8
0
  6
Continuous
 62
     7
370
    25
100
AcDbLine
 10
601.6471257929
 20
-0.4579456975
 30
0.0
 11
601.6471257929
 21
112.0420513222
 31
0.0
  0
LINE
  5
C0
330
1F
100
AcDbEntity
  8
0
  6
Continuous
 62
     7
370
    25
100
AcDbLine
 10
321.6471246008
 20
112.0420513222
 30
0.0
 11
321.6471246008
 21
202.0420548985
 31
0.0
  0
LINE
  5
C1
330
1F
100
AcDbEntity
  8
0
  6
Continuous
 62
     7
370
    25
100
AcDbLine
 10
321.6471246008
 20
22.0420477459
 30
0.0
 11
321.6471246008
 21
112.0420513222
 31
0.0
  0
LINE
  5
C2
330
1F
100
AcDbEntity
  8
0
  6
Continuous
 62
     1
370
    25
100
AcDbLine
 10
482.040401784
 20
112.0420513222
 30
0.0
 11
482.040401784
 21
224.542048342
 31
0.0
  0
LINE
  5
C3
330
1F
100
AcDbEntity
  8
0
  6
Continuous
 62
     1
370
    25
100
AcDbLine
 10
482.040401784
 20
-0.4579456975
 30
0.0
 11
482.040401784
 21
112.0420513222
 31
0.0
  0
LINE
  5
C4
330
1F
100
AcDbEntity
  8
0
  6
Continuous
 62
     1
370
    25
100
AcDbLine
 10
481.283135948
 20
112.0420513222
 30
0.0
 11
481.283135948
 21
224.3931484888
 31
0.0
  0
LINE
  5
C5
330
1F
100
AcDbEntity
  8
0
  6
Continuous
 62
     1
370
    25
100
AcDbLine
 10
481.283135948
 20
-0.3090458443
 30
0.0
 11
481.283135948
 21
112.0420513222
 31
0.0
  0
LINE
  5
C6
330
1F
100
AcDbEntity
  8
0
  6
Continuous
 62
     1
370
    25
100
AcDbLine
 10
427.0111213003
 20
112.0420513222
 30
0.0
 11
427.0111213003
 21
202.1909547517
 31
0.0
  0
LINE
  5
C7
330
1F
100
AcDbEntity
  8
0
  6
Continuous
 62
     1
370
    25
100
AcDbLine
 10
427.0111213003
 20
21.8931478927
 30
0.0
 11
427.0111213003
 21
112.0420513222
 31
0.0
  0
LINE
  5
C8
330
1F
100
AcDbEntity
  8
0
  6
Continuous
 62
     1
370
    25
100
AcDbLine
 10
426.2538554643
 20
112.0420513222
 30
0.0
 11
426.2538554643
 21
202.0420548985
 31
0.0
  0
LINE
  5
C9
330
1F
100
AcDbEntity
  8
0
  6
Continuous
 62
     1
370
    25
100
AcDbLine
 10
426.2538554643
 20
22.0420477459
 30
0.0
 11
426.2538554643
 21
112.0420513222
 31
0.0
  0
LINE
  5
CA
330
1F
100
AcDbEntity
  8
0
  6
Continuous
 62
     7
370
    25
100
AcDbLine
 10
18.1810359314
 20
-242.222968968
 30
0.0
 11
18.1810359314
 21
-361.8296929769
 31
0.0
  0
LINE
  5
CB
330
1F
100
AcDbEntity
  8
0
  6
Continuous
 62
     7
370
    25
100
AcDbLine
 10
243.1810299709
 20
-361.8296929769
 30
0.0
 11
243.1810299709
 21
-242.222968968
 31
0.0
  0
ARC
  5
CC
330
1F
100
AcDbEntity
  8
0
  6
Continuous
 62
     7
370
    25
100
AcDbCircle
 10
20.1810329512
 20
-242.2229688231
 30
0.0
 40
1.999999999999989
100
AcDbArc
 50
157.7509763428
 51
180.0
  0
ARC
  5
CD
330
1F
100
AcDbEntity
  8
0
  6
Continuous
 62
     7
370
    25
100
AcDbCircle
 10
241.1810329512
 20
-242.2229688231
 30
0.0
 40
1.999999999999977
100
AcDbArc
 50
0.0
 51
22.2490236572
  0
LINE
  5
CE
330
1F
100
AcDbEntity
  8
0
  6
Continuous
 62
     7
370
    25
100
AcDbLine
 10
243.0321301177
 20
-241.465703132
 30
0.0
 11
220.8299363807
 21
-187.1936884843
 31
0.0
  0
LINE
  5
CF
330
1F
100
AcDbEntity
  8
0
  6
Continuous
 62
     7
370
    25
100
AcDbLine
 10
40.5321295217
 20
-187.1936884843
 30
0.0
 11
18.3299357846
 21
-241.465703132
 31
0.0
  0
ARC
  5
D0
330
1F
100
AcDbEntity
  8
0
  6
Continuous
 62
     7
370
    25
100
AcDbCircle
 10
38.6810329512
 20
-186.4364227573
 30
0.0
 40
1.999999999999993
100
AcDbArc
 50
337.7509763428
 51
0.0
  0
ARC
  5
D1
330
1F
100
AcDbEntity
  8
0
  6
Continuous
 62
     7
370
    25
100
AcDbCircle
 10
222.6810329512
 20
-186.4364227573
 30
0.0
 40
1.999999999999972
100
AcDbArc
 50
180.0
 51
202.2490236572
  0
LINE
  5
D2
330
1F
100
AcDbEntity
  8
0
  6
Continuous
 62
     7
370
    25
100
AcDbLine
 10
40.6810293749
 20
-81.8296917848
 30
0.0
 11
40.6810293749
 21
-186.4364226483
 31
0.0
  0
LINE
  5
D3
330
1F
100
AcDbEntity
  8
0
  6
Continuous
 62
     7
370
    25
100
AcDbLine
 10
220.6810365274
 20
-186.4364226483
 30
0.0
 11
220.6810365274
 21
-81.8296917848
 31
0.0
  0
LINE
  5
D4
330
1F
100
AcDbEntity
  8
0
  6
Continuous
 62
     7
370
    25
100
AcDbLine
 10
18.1810359314
 20
-361.8296929769
 30
0.0
 11
243.1810299709
 21
-361.8296929769
 31
0.0
  0
LINE
  5
D5
330
1F
100
AcDbEntity
  8
0
  6
Continuous
 62
     7
370
    25
100
AcDbLine
 10
40.6810293749
 20
-81.8296917848
 30
0.0
 11
220.6810365274
 21
-81.8296917848
 31
0.0
  0
LINE
  5
D6
330
1F
100
AcDbEntity
  8
0
  6
Continuous
 62
     1
370
    25
100
AcDbLine
 10
18.1810359314
 20
-242.222968968
 30
0.0
 11
243.1810299709
 21
-242.222968968
 31
0.0
  0
LINE
  5
D7
330
1F
100
AcDbEntity
  8
0
  6
Continuous
 62
     1
370
    25
100
AcDbLine
 10
18.3299357846
 20
-241.465703132
 30
0.0
 11
243.0321301177
 21
-241.465703132
 31
0.0
  0
LINE
  5
D8
330
1F
100
AcDbEntity
  8
0
  6
Continuous
 62
     1
370
    25
100
AcDbLine
 10
40.5321295217
 20
-187.1936884843
 30
0.0
 11
220.8299363807
 21
-187.1936884843
 31
0.0
  0
LINE
  5
D9
330
1F
100
AcDbEntity
  8
0
  6
Continuous
 62
     1
370
    25
100
AcDbLine
 10
40.6810293749
 20
-186.4364226483
 30
0.0
 11
220.6810365274
 21
-186.4364226483
 31
0.0
  0
LINE
  5
DA
330
1F
100
AcDbEntity
  8
0
  6
Continuous
 62
     7
370
    25
100
AcDbLine
 10
503.9918510964
 20
-102.4767386232
 30
0.0
 11
419.4171254742
 21
-53.6527887685
 31
0.0
  0
LINE
  5
DB
330
1F
100
AcDbEntity
  8
0
  6
Continuous
 62
     7
370
    25
100
AcDbLine
 10
306.9262701047
 20
-248.5137877008
 30
0.0
 11
391.5009957269
 21
-297.3377375555
 31
0.0
  0
SPLINE
  5
DC
330
1F
100
AcDbEntity
  8
0
  6
Continuous
 62
     7
370
    25
100
AcDbSpline
210
0.0
220
0.0
230
1.0
 70
     8
 71
     3
 72
     9
 73
     5
 74
     0
 42
0.000000001
 43
0.00000001
 40
0.0
 40
0.0
 40
0.0
 40
0.0
 40
0.5390121719289672
 40
1.0
 40
1.0
 40
1.0
 40
1.0
 10
513.3346049090159
 20
-109.9946894933099
 30
0.0
 10
512.6925622017935
 20
-109.3096352239674
 30
0.0
 10
511.5014152469395
 20
-108.0386912545743
 30
0.0
 10
510.1893370780586
 20
-106.9363827920614
 30
0.0
 10
509.5844850127268
 20
-106.4282320080633
 30
0.0
  0
SPLINE
  5
DD
330
1F
100
AcDbEntity
  8
0
  6
Continuous
 62
     7
370
    25
100
AcDbSpline
210
0.0
220
0.0
230
1.0
 70
     8
 71
     3
 72
    10
 73
     6
 74
     0
 42
0.000000001
 43
0.00000001
 40
0.0
 40
0.0
 40
0.0
 40
0.0
 40
0.0351703823815691
 40
0.5390304389595205
 40
1.0
 40
1.0
 40
1.0
 40
1.0
 10
397.6492344249576
 20
-300.1971453704235
 30
0.0
 10
397.7182516379696
 20
-300.2253006653231
 30
0.0
 10
398.7760274170897
 20
-300.6568160467631
 30
0.0
 10
400.8348283516202
 20
-301.2626017935921
 30
0.0
 10
402.8772871207278
 20
-301.708743796518
 30
0.0
 10
403.8531188168596
 20
-301.9218984089957
 30
0.0
  0
LINE
  5
DE
330
1F
100
AcDbEntity
  8
0
  6
Continuous
 62
     7
370
    25
100
AcDbLine
 10
410.7653666088
 20
-302.7397167897
 30
0.0
 11
456.5552807036
 21
-304.6336903639
 31
0.0
  0
LINE
  5
DF
330
1F
100
AcDbEntity
  8
0
  6
Continuous
 62
     7
370
    25
100
AcDbLine
 10
542.8424209271
 20
-155.1637820362
 30
0.0
 11
518.3036063959
 21
-116.4578426253
 31
0.0
  0
LINE
  5
E0
330
1F
100
AcDbEntity
  8
0
  6
Continuous
 62
     7
370
    25
100
AcDbLine
 10
606.1579416198
 20
-187.4360260204
 30
0.0
 11
538.5635977922
 21
-148.4146419223
 31
0.0
  0
LINE
  5
E1
330
1F
100
AcDbEntity
  8
0
  6
Continuous
 62
     7
370
    25
100
AcDbLine
 10
448.5709092819
 20
-304.3034386343
 30
0.0
 11
516.1652531095
 21
-343.3248227324
 31
0.0
  0
LWPOLYLINE
  5
E2
330
1F
100
AcDbEntity
  8
0
  6
Continuous
 62
     7
370
    25
100
AcDbPolyline
 90
      124
 70
   128
 43
0.0
 10
283.6221870133
 20
-197.0062433081
 10
283.7259525543
 20
-192.2558717837
 10
284.0369857596
 20
-187.3980837919
 10
284.554470034
 20
-182.4455561726
 10
285.2770619467
 20
-177.4112060224
 10
286.2028701578
 20
-172.3081686393
 10
287.3294817602
 20
-167.1497595021
 10
288.653951743
 20
-161.9494370068
 10
290.1728346013
 20
-156.7207644462
 10
291.882163263
 20
-151.4773841522
 10
293.7774806987
 20
-146.2329718714
 10
295.8538346539
 20
-141.0012185129
 10
298.1058145268
 20
-135.7957662733
 10
300.5275461005
 20
-130.6301964686
 10
303.1127073476
 20
-125.5179869499
 10
305.8545547724
 20
-120.4724786455
 10
308.7459392157
 20
-115.5068268924
 10
311.7793111233
 20
-110.6339862282
 10
314.9467626927
 20
-105.8666799758
 10
318.240022605
 20
-101.2173363648
 10
321.650508708
 20
-96.6980885355
 10
325.1693201142
 20
-92.320718265
 10
328.7872714448
 20
-88.0966605323
 10
332.4949297083
 20
-84.0369274758
 10
336.2826195688
 20
-80.152105352
 10
340.1404602244
 20
-76.4523393298
 10
344.058386481
 20
-72.9472726549
 10
348.0261777277
 20
-69.6460603417
 10
352.0334816448
 20
-66.557300733
 10
356.0698438384
 20
-63.6890670627
 10
360.1247338525
 20
-61.0488316016
 10
364.1875733219
 20
-58.6434859076
 10
368.2477621497
 20
-56.4793074628
 10
372.2947084706
 20
-54.5619362918
 10
376.3178530174
 20
-52.8963791472
 10
380.3067018833
 20
-51.486978428
 10
384.2508474308
 20
-50.3374183608
 10
388.1399992437
 20
-49.4506888807
 10
391.964011785
 20
-48.829106166
 10
395.7129081056
 20
-48.4742989525
 10
399.3769101366
 20
-48.3871788782
 10
402.9464531775
 20
-48.5679868729
 10
406.4122306774
 20
-49.0162429716
 10
409.7651968689
 20
-49.7307873802
 10
412.9966115493
 20
-50.7097363723
 10
416.0980348122
 20
-51.9505583355
 10
419.061379731
 20
-53.4500007717
 10
421.878912359
 20
-55.2041633015
 10
424.5432886079
 20
-57.2084581235
 10
427.0475489793
 20
-59.4576617257
 10
429.38516598
 20
-61.9459088057
 10
431.5500388538
 20
-64.6667074798
 10
433.5365251912
 20
-67.6129514534
 10
435.3394356616
 20
-70.776962606
 10
436.954065623
 20
-74.1504818694
 10
438.3762056589
 20
-77.7247148556
 10
439.602152115
 20
-81.4903257746
 10
440.6286965624
 20
-85.4374997914
 10
441.4531626762
 20
-89.5559369454
 10
442.0734009673
 20
-93.8348924547
 10
442.4877940502
 20
-98.2632018118
 10
442.695261912
 20
-102.8293121533
 10
442.695261912
 20
-107.5213115376
 10
442.4877940502
 20
-112.3269591736
 10
442.0734009673
 20
-117.2337166002
 10
441.4531626762
 20
-122.2287839975
 10
440.6286965624
 20
-127.2991294646
 10
439.602152115
 20
-132.4315264722
 10
438.3762056589
 20
-137.6125850407
 10
436.954065623
 20
-142.8287859621
 10
435.3394356616
 20
-148.066517298
 10
433.5365251912
 20
-153.3121245718
 10
431.5500388538
 20
-158.551916851
 10
429.38516598
 20
-163.7722245416
 10
427.0475489793
 20
-168.9594267618
 10
424.5432886079
 20
-174.0999878445
 10
421.878912359
 20
-179.1805060043
 10
419.061379731
 20
-184.1877224631
 10
416.0980348122
 20
-189.1085701159
 10
412.9966115493
 20
-193.9302191584
 10
409.7651968689
 20
-198.6400801258
 10
406.4122306774
 20
-203.2258768971
 10
402.9464531775
 20
-207.6756345229
 10
399.3769101366
 20
-211.9777491882
 10
395.7129081056
 20
-216.120995813
 10
391.964011785
 20
-220.094572159
 10
388.1399992437
 20
-223.8881003463
 10
384.2508474308
 20
-227.4916899701
 10
380.3067018833
 20
-230.8959434215
 10
376.3178530174
 20
-234.0919695736
 10
372.2947084706
 20
-237.0714362506
 10
368.2477621497
 20
-239.8265698447
 10
364.1875733219
 20
-242.3501856379
 10
360.1247338525
 20
-244.6356945476
 10
356.0698438384
 20
-246.6771354445
 10
352.0334816448
 20
-248.4691863659
 10
348.0261777277
 20
-250.0071613772
 10
344.058386481
 20
-251.2870633257
 10
340.1404602244
 20
-252.3055380203
 10
336.2826195688
 20
-253.0599400094
 10
332.4949297083
 20
-253.5482915129
 10
328.7872714448
 20
-253.7693295687
 10
325.1693201142
 20
-253.7224695282
 10
321.650508708
 20
-253.4078324296
 10
318.240022605
 20
-252.8262480394
 10
314.9467626927
 20
-251.9792213884
 10
311.7793111233
 20
-250.8689768753
 10
308.7459392157
 20
-249.498392868
 10
305.8545547724
 20
-247.871062535
 10
303.1127073476
 20
-245.9912238841
 10
300.5275461005
 20
-243.8637780088
 10
298.1058145268
 20
-241.494279963
 10
295.8538346539
 20
-238.8889083404
 10
293.7774806987
 20
-236.0544622305
 10
291.882163263
 20
-232.998336882
 10
290.1728346013
 20
-229.7285054526
 10
288.653951743
 20
-226.2534977123
 10
287.3294817602
 20
-222.5823757092
 10
286.2028701578
 20
-218.7247246408
 10
285.2770619467
 20
-214.6906026657
 10
284.554470034
 20
-210.4905393796
 10
284.0369857596
 20
-206.1354863859
 10
283.7259525543
 20
-201.636809689
 10
283.6221870133
 20
-197.0062433081
  0
LWPOLYLINE
  5
E3
330
1F
100
AcDbEntity
  8
0
  6
Continuous
 62
     7
370
    25
100
AcDbPolyline
 90
      117
 70
   128
 43
0.0
 10
293.0974149562
 20
-191.5363106475
 10
293.2001847779
 20
-187.0961059872
 10
293.5081939469
 20
-182.5502694757
 10
294.0205363057
 20
-177.9121357447
 10
294.7357156414
 20
-173.1953055326
 10
295.6516246114
 20
-168.4136190665
 10
296.7655816227
 20
-163.5810990302
 10
298.0743202943
 20
-158.7119231875
 10
299.5739999947
 20
-153.8203711502
 10
301.260226915
 20
-148.9207848361
 10
303.1280488004
 20
-144.0275456547
 10
305.1719865608
 20
-139.1550045477
 10
307.3860500751
 20
-134.3174485296
 10
309.763738192
 20
-129.5290702699
 10
312.2980861449
 20
-124.803910302
 10
314.9816497466
 20
-120.1558418122
 10
317.8065686098
 20
-115.5984793906
 10
320.7645503421
 20
-111.145206406
 10
323.8469179611
 20
-106.8090746292
 10
327.0446309678
 20
-102.602810319
 10
330.3483116883
 20
-98.5387442617
 10
333.7482716159
 20
-94.6287965643
 10
337.2345324842
 20
-90.8844462384
 10
340.7968710482
 20
-87.3166688462
 10
344.424841475
 20
-83.9359296582
 10
348.1077990511
 20
-80.7521456326
 10
351.8349410124
 20
-77.7746496772
 10
355.5953355201
 20
-75.0121860897
 10
359.3779526122
 20
-72.4728501031
 10
363.1716977894
 20
-70.1640928326
 10
366.9654429667
 20
-68.0926851559
 10
370.7480600588
 20
-66.2647044089
 10
374.5084545665
 20
-64.6855089127
 10
378.2355965278
 20
-63.359738357
 10
381.9185541039
 20
-62.291270077
 10
385.5465245307
 20
-61.4832437707
 10
389.1088630947
 20
-60.9380326043
 10
392.595123963
 20
-60.6572318094
 10
395.9950838906
 20
-60.6416693312
 10
399.2987646111
 20
-60.8913868194
 10
402.4964776177
 20
-61.4056502786
 10
405.5788452367
 20
-62.1829561541
 10
408.5368269691
 20
-63.2210161254
 10
411.3617458323
 20
-64.5167966523
 10
414.045309434
 20
-66.0664885584
 10
416.5796573868
 20
-67.8655526637
 10
418.9573455038
 20
-69.9087106571
 10
421.1714090181
 20
-72.189963354
 10
423.2153467784
 20
-74.7026241545
 10
425.0831686639
 20
-77.4393220902
 10
426.7693955842
 20
-80.3920322425
 10
428.2690752846
 20
-83.5520909536
 10
429.5778139562
 20
-86.9102292894
 10
430.6917709674
 20
-90.4566019369
 10
431.6076799375
 20
-94.1808024155
 10
432.3228592732
 20
-98.0719041427
 10
432.835201632
 20
-102.1184999774
 10
433.1432108009
 20
-106.308716672
 10
433.2459806227
 20
-110.6302658218
 10
433.1432108009
 20
-115.0704704821
 10
432.835201632
 20
-119.6163069936
 10
432.3228592732
 20
-124.2544407246
 10
431.6076799375
 20
-128.9712709367
 10
430.6917709674
 20
-133.7529574028
 10
429.5778139562
 20
-138.5854774391
 10
428.2690752846
 20
-143.4546532818
 10
426.7693955842
 20
-148.3462053191
 10
425.0831686639
 20
-153.2457916332
 10
423.2153467784
 20
-158.1390308146
 10
421.1714090181
 20
-163.0115719216
 10
418.9573455038
 20
-167.8491279397
 10
416.5796573868
 20
-172.6375061994
 10
414.045309434
 20
-177.3626661673
 10
411.3617458323
 20
-182.0107346571
 10
408.5368269691
 20
-186.5680970787
 10
405.5788452367
 20
-191.0213700633
 10
402.4964776177
 20
-195.35750184
 10
399.2987646111
 20
-199.5637661503
 10
395.9950838906
 20
-203.6278322076
 10
392.595123963
 20
-207.537779905
 10
389.1088630947
 20
-211.2821302309
 10
385.5465245307
 20
-214.8499076231
 10
381.9185541039
 20
-218.2306468111
 10
378.2355965278
 20
-221.4144308367
 10
374.5084545665
 20
-224.391926792
 10
370.7480600588
 20
-227.1543903796
 10
366.9654429667
 20
-229.6937263662
 10
363.1716977894
 20
-232.0024836367
 10
359.3779526122
 20
-234.0738913134
 10
355.5953355201
 20
-235.9018720604
 10
351.8349410124
 20
-237.4810675566
 10
348.1077990511
 20
-238.8068381123
 10
344.424841475
 20
-239.8753063923
 10
340.7968710482
 20
-240.6833326986
 10
337.2345324842
 20
-241.228543865
 10
333.7482716159
 20
-241.5093446599
 10
330.3483116883
 20
-241.5249071381
 10
327.0446309678
 20
-241.2751896499
 10
323.8469179611
 20
-240.7609261907
 10
320.7645503421
 20
-239.9836203152
 10
317.8065686098
 20
-238.9455603439
 10
314.9816497466
 20
-237.649779817
 10
312.2980861449
 20
-236.1000879109
 10
309.763738192
 20
-234.3010238056
 10
307.3860500751
 20
-232.2578658122
 10
305.1719865608
 20
-229.9766131153
 10
303.1280488004
 20
-227.4639523148
 10
301.260226915
 20
-224.7272543791
 10
299.5739999947
 20
-221.7745442268
 10
298.0743202943
 20
-218.6144855157
 10
296.7655816227
 20
-215.2563471799
 10
295.6516246114
 20
-211.7099745324
 10
294.7357156414
 20
-207.9857740538
 10
294.0205363057
 20
-204.0946723266
 10
293.5081939469
 20
-200.0480764919
 10
293.2001847779
 20
-195.8578597973
 10
293.0974149562
 20
-191.5363106475
  0
ARC
  5
E4
330
1F
100
AcDbEntity
  8
0
  6
Continuous
 62
     7
370
    25
100
AcDbCircle
 10
485.0074888384
 20
-135.3202531421
 30
0.0
 40
37.93550390201106
100
AcDbArc
 50
49.9659888183
 51
59.9710274167
  0
ARC
  5
E5
330
1F
100
AcDbEntity
  8
0
  6
Continuous
 62
     7
370
    25
100
AcDbCircle
 10
410.4237147876
 20
-264.5272799823
 30
0.0
 40
37.87605342187865
100
AcDbArc
 50
240.0267348242
 51
249.949166565
  0
ARC
  5
E6
330
1F
100
AcDbEntity
  8
0
  6
Continuous
 62
     7
370
    25
100
AcDbCircle
 10
477.4225574405
 20
-142.7286026244
 30
0.0
 40
48.58920406399192
100
AcDbArc
 50
19.4471716085
 51
42.0783303311
  0
ARC
  5
E7
330
1F
100
AcDbEntity
  8
0
  6
Continuous
 62
     7
370
    25
100
AcDbCircle
 10
413.0374787139
 20
-252.9404986881
 30
0.0
 40
49.83241597152104
100
AcDbArc
 50
259.6023631111
 51
280.1321520076
  0
ARC
  5
E8
330
1F
100
AcDbEntity
  8
0
  6
Continuous
 62
     7
370
    25
100
AcDbCircle
 10
507.9148525175
 20
-177.1863205275
 30
0.0
 40
41.2907645436773
100
AcDbArc
 50
23.7128291264
 51
32.2322606967
  0
ARC
  5
E9
330
1F
100
AcDbEntity
  8
0
  6
Continuous
 62
     7
370
    25
100
AcDbCircle
 10
458.1569691635
 20
-262.9773030693
 30
0.0
 40
41.68716838982118
100
AcDbArc
 50
267.7980614612
 51
277.6630997604
  0
LWPOLYLINE
  5
EA
330
1F
100
AcDbEntity
  8
0
  6
Continuous
 62
     7
370
    25
100
AcDbPolyline
 90
       57
 70
   128
 43
0.0
 10
606.1579416198
 20
-187.4360260204
 10
608.0475165474
 20
-188.6225619376
 10
610.427670255
 20
-190.4204800056
 10
612.6471232976
 20
-192.4629052744
 10
614.6986422223
 20
-194.7431693267
 10
616.5755362169
 20
-197.2538372495
 10
618.2716834516
 20
-199.9867198038
 10
619.7815468843
 20
-202.932903845
 10
621.1002058704
 20
-206.0827781815
 10
622.223356163
 20
-209.4260700766
 10
623.1473362545
 20
-212.9518726279
 10
623.8691326454
 20
-216.6486850724
 10
624.3863903805
 20
-220.5044508104
 10
624.6974183174
 20
-224.5065946688
 10
624.8012102002
 20
-228.6420578846
 10
624.6974183174
 20
-232.8973566574
 10
624.3863903805
 20
-237.2586057281
 10
623.8691326454
 20
-241.711584535
 10
623.1473362545
 20
-246.2417653536
 10
622.223356163
 20
-250.8343726111
 10
621.1002058704
 20
-255.4744262316
 10
619.7815468843
 20
-260.1467918262
 10
618.2716834516
 20
-264.8362270807
 10
616.5755362169
 20
-269.5274395481
 10
614.6986422223
 20
-274.2051231507
 10
612.6471232976
 20
-278.8540205357
 10
610.427670255
 20
-283.4589717426
 10
608.0475165474
 20
-288.0049567871
 10
605.514433
 20
-292.4771412883
 10
602.8366803951
 20
-296.860943385
 10
600.0229910328
 20
-301.1420656732
 10
597.0825450236
 20
-305.306539311
 10
594.0249307756
 20
-309.3407802891
 10
590.8601239209
 20
-313.2316320146
 10
587.5984478033
 20
-316.9664063722
 10
584.2505392336
 20
-320.532915661
 10
580.8273181969
 20
-323.9195265837
 10
577.339953608
 20
-327.1151982672
 10
573.7998172135
 20
-330.1095027904
 10
570.2184579085
 20
-332.8926765134
 10
566.6075576139
 20
-335.4556333808
 10
562.9788932459
 20
-337.7900233795
 10
559.3443014834
 20
-339.8882285425
 10
555.7156371153
 20
-341.7434052457
 10
552.1047368207
 20
-343.3495051175
 10
548.5233775157
 20
-344.7012808333
 10
544.9832411212
 20
-345.7943307893
 10
541.4958765323
 20
-346.6250845552
 10
538.0726554956
 20
-347.190840513
 10
534.724746926
 20
-347.4897441812
 10
531.4630708083
 20
-347.5208209106
 10
528.2982639536
 20
-347.2839774018
 10
525.2406497056
 20
-346.7799826911
 10
522.3002036964
 20
-346.0104757515
 10
519.4865143342
 20
-344.9779700522
 10
516.8087617292
 20
-343.6858353052
 10
516.1652531095
 20
-343.3248227324
  0
LWPOLYLINE
  5
EB
330
1F
100
AcDbEntity
  8
0
  6
Continuous
 62
     1
370
    25
100
AcDbPolyline
 90
       59
 70
   128
 43
0.0
 10
509.4092068065
 20
-106.2744510959
 10
511.6222746015
 20
-108.2816115804
 10
513.9598916023
 20
-110.7698586604
 10
516.124764476
 20
-113.4906573345
 10
518.1112508135
 20
-116.4369013081
 10
519.9141612839
 20
-119.6009124607
 10
521.5287912452
 20
-122.9744317241
 10
522.9509312811
 20
-126.5486647103
 10
524.1768777372
 20
-130.3142756294
 10
525.2034221846
 20
-134.2614496461
 10
526.0278882984
 20
-138.3798868001
 10
526.6481265895
 20
-142.6588423094
 10
527.0625196724
 20
-147.0871516665
 10
527.2699875342
 20
-151.6532620081
 10
527.2699875342
 20
-156.3452613923
 10
527.0625196724
 20
-161.1509090283
 10
526.6481265895
 20
-166.057666455
 10
526.0278882984
 20
-171.0527338522
 10
525.2034221846
 20
-176.1230793193
 10
524.1768777372
 20
-181.2554763269
 10
522.9509312811
 20
-186.4365348955
 10
521.5287912452
 20
-191.6527358168
 10
519.9141612839
 20
-196.8904671527
 10
518.1112508135
 20
-202.1360744265
 10
516.124764476
 20
-207.3758667057
 10
513.9598916023
 20
-212.5961743963
 10
511.6222746015
 20
-217.7833766165
 10
509.1180142301
 20
-222.9239376992
 10
506.4536379812
 20
-228.004455859
 10
503.6361053532
 20
-233.0116723179
 10
500.6727604344
 20
-237.9325199706
 10
497.5713371715
 20
-242.7541690131
 10
494.3399224911
 20
-247.4640299805
 10
490.9869562996
 20
-252.0498267518
 10
487.5211787997
 20
-256.4995843776
 10
483.9516357588
 20
-260.8016990429
 10
480.2876337278
 20
-264.9449456677
 10
476.5387374072
 20
-268.9185220138
 10
472.7147248659
 20
-272.712050201
 10
468.8255730531
 20
-276.3156398248
 10
464.8814275055
 20
-279.7198932762
 10
460.8925786396
 20
-282.9159194283
 10
456.8694340928
 20
-285.8953861053
 10
452.8224877719
 20
-288.6505196994
 10
448.7622989441
 20
-291.1741354926
 10
444.6994594747
 20
-293.4596444023
 10
440.6445694606
 20
-295.5010852992
 10
436.6082072671
 20
-297.2931362207
 10
432.6009033499
 20
-298.8311112319
 10
428.6331121032
 20
-300.1110131804
 10
424.7151858466
 20
-301.129487875
 10
420.857345191
 20
-301.8838898641
 10
417.0696553305
 20
-302.3722413677
 10
413.361997067
 20
-302.5932794234
 10
409.7440457364
 20
-302.5464193829
 10
406.2252343302
 20
-302.2317822843
 10
402.8147482272
 20
-301.6501978941
 10
399.521488315
 20
-300.8031712431
 10
397.437769198
 20
-300.1076206209
  0
ARC
  5
EC
330
1F
100
AcDbEntity
  8
0
  6
Continuous
 62
     1
370
    25
100
AcDbCircle
 10
537.4861915428
 20
-251.7129063454
 30
0.0
 40
161.4101473588746
100
AcDbArc
 50
131.0815675932
 51
168.9238075155
  0
LWPOLYLINE
  5
ED
330
1F
100
AcDbEntity
  8
0
  6
Continuous
 62
     1
370
    25
100
AcDbPolyline
 90
       46
 70
   128
 43
0.0
 10
523.2396925112
 20
-126.5514308849
 10
523.3868587694
 20
-126.9548793833
 10
524.6111773035
 20
-130.7155106386
 10
525.636362515
 20
-134.6574601478
 10
526.4597433475
 20
-138.77044316
 10
527.079159775
 20
-143.0437354251
 10
527.4930049489
 20
-147.4661830828
 10
527.7001988562
 20
-152.0262494297
 10
527.7001988562
 20
-156.7120384937
 10
527.4930049489
 20
-161.511325834
 10
527.079159775
 20
-166.4115889589
 10
526.4597433475
 20
-171.4000442084
 10
525.636362515
 20
-176.4636824947
 10
524.6111773035
 20
-181.5892856543
 10
523.3868587694
 20
-186.7634850004
 10
521.9665995367
 20
-191.9727780533
 10
520.3541032595
 20
-197.2035832934
 10
518.5535846228
 20
-202.4422432026
 10
516.569727195
 20
-207.6751003069
 10
514.4077203069
 20
-212.8884971797
 10
512.0731958312
 20
-218.0688342311
 10
509.5722492558
 20
-223.2025910028
 10
506.9113975371
 20
-228.2763900432
 10
504.0975949052
 20
-233.2769756157
 10
501.1381749116
 20
-238.1913110325
 10
498.0408556981
 20
-243.0065756137
 10
494.8137189228
 20
-247.7102072705
 10
491.4651913213
 20
-252.2899253179
 10
488.0040025596
 20
-256.7337913078
 10
484.4391799657
 20
-261.0302181536
 10
480.7800300906
 20
-265.1679807753
 10
477.0360965614
 20
-269.1362951838
 10
473.2171442761
 20
-272.9248032699
 10
469.3331396471
 20
-276.5236267953
 10
465.3942150404
 20
-279.9233696707
 10
461.4106463844
 20
-283.1151673841
 10
457.3928268285
 20
-286.0906900397
 10
453.3512371086
 20
-288.8421777169
 10
449.2964220863
 20
-291.3624540138
 10
445.2389605383
 20
-293.6449374038
 10
441.1894373327
 20
-295.6836755487
 10
437.1584172522
 20
-297.4733543272
 10
433.1564185696
 20
-299.0092948376
 10
429.1938785568
 20
-300.2874976442
 10
425.2811389968
 20
-301.3046268063
 10
421.803955506
 20
-301.9957590198
  0
LWPOLYLINE
  5
EE
330
1F
100
AcDbEntity
  8
0
  6
Continuous
 62
     1
370
    25
100
AcDbPolyline
 90
       42
 70
   128
 43
0.0
 10
545.7195439305
 20
-160.5811242393
 10
546.6957808459
 20
-162.9746572023
 10
547.8207855997
 20
-166.3234823994
 10
548.7462935145
 20
-169.8551193654
 10
549.4692858223
 20
-173.5580475647
 10
549.987397031
 20
-177.4201936664
 10
550.2989412668
 20
-181.4289585435
 10
550.4029017371
 20
-185.5712655608
 10
550.2989412668
 20
-189.8336027821
 10
549.987397031
 20
-194.2020689775
 10
549.4692858223
 20
-198.6624135478
 10
548.7462935145
 20
-203.2000908974
 10
547.8207855997
 20
-207.8002965567
 10
546.6957808459
 20
-212.4480245947
 10
545.3749407604
 20
-217.1281208504
 10
543.8625748586
 20
-221.8253156335
 10
542.1636248584
 20
-226.5242876012
 10
540.283627802
 20
-231.209709383
 10
538.2287107877
 20
-235.8663023336
 10
536.0055804326
 20
-240.4788730336
 10
533.621491263
 20
-245.0323771659
 10
531.0842193725
 20
-249.5119651409
 10
528.4020334459
 20
-253.9030170747
 10
525.5836894911
 20
-258.1912249194
 10
522.6383781551
 20
-262.3625833317
 10
519.5757062852
 20
-266.4035037413
 10
516.4056626846
 20
-270.3007915332
 10
513.1385891362
 20
-274.041741864
 10
509.7851435243
 20
-277.6141548671
 10
506.3562590048
 20
-281.0063713908
 10
502.863124249
 20
-284.2073269895
 10
499.3171307597
 20
-287.2065884208
 10
495.7298465297
 20
-289.9943627685
 10
492.1129712608
 20
-292.5615658803
 10
488.4783034364
 20
-294.8998170413
 10
484.8376981747
 20
-297.0014937235
 10
481.2030303502
 20
-298.8597407075
 10
477.5861550813
 20
-300.4684928935
 10
473.9988708514
 20
-301.8225087572
 10
470.452877362
 20
-302.917364263
 10
466.9597426062
 20
-303.7494962067
 10
463.7158669466
 20
-304.292175256
  0
ARC
  5
EF
330
1F
100
AcDbEntity
  8
0
  6
Continuous
 62
     1
370
    25
100
AcDbCircle
 10
539.2058352021
 20
-252.7056337856
 30
0.0
 40
161.625664004857
100
AcDbArc
 50
132.0736816944
 51
167.9316942345
  0
LWPOLYLINE
  5
F0
330
1F
100
AcDbEntity
  8
0
  6
Continuous
 62
     1
370
    25
100
AcDbPolyline
 90
       49
 70
   128
 43
0.0
 10
541.3881096749
 20
-152.8698506003
 10
542.6074074656
 20
-154.5529454354
 10
544.3035547003
 20
-157.2858279897
 10
545.813418133
 20
-160.232012031
 10
547.1320771191
 20
-163.3818863674
 10
548.2552274117
 20
-166.7251782625
 10
549.1792075032
 20
-170.2509808138
 10
549.9010038941
 20
-173.9477932583
 10
550.4182616292
 20
-177.8035589963
 10
550.7292895661
 20
-181.8057028547
 10
550.8330814489
 20
-185.9411660705
 10
550.7292895661
 20
-190.1964648433
 10
550.4182616292
 20
-194.557713914
 10
549.9010038941
 20
-199.0106927209
 10
549.1792075032
 20
-203.5408735395
 10
548.2552274117
 20
-208.133480797
 10
547.1320771191
 20
-212.7735344175
 10
545.813418133
 20
-217.4459000121
 10
544.3035547003
 20
-222.1353352666
 10
542.6074074656
 20
-226.826547734
 10
540.730513471
 20
-231.5042313367
 10
538.6789945463
 20
-236.1531287216
 10
536.4595415037
 20
-240.7580799285
 10
534.0793877961
 20
-245.304064973
 10
531.5463042487
 20
-249.7762494742
 10
528.8685516438
 20
-254.1600515709
 10
526.0548622815
 20
-258.4411738591
 10
523.1144162723
 20
-262.605647497
 10
520.0568020243
 20
-266.639888475
 10
516.8919951696
 20
-270.5307402005
 10
513.630319052
 20
-274.2655145581
 10
510.2824104823
 20
-277.8320238469
 10
506.8591894456
 20
-281.2186347696
 10
503.3718248567
 20
-284.4143064531
 10
499.8316884622
 20
-287.4086109764
 10
496.2503291572
 20
-290.1917846993
 10
492.6394288626
 20
-292.7547415667
 10
489.0107644946
 20
-295.0891315655
 10
485.376172732
 20
-297.1873367284
 10
481.747508364
 20
-299.0425134316
 10
478.1366080694
 20
-300.6486133034
 10
474.5552487644
 20
-302.0003890192
 10
471.0151123699
 20
-303.0934389752
 10
467.527747781
 20
-303.9241927411
 10
464.1045267443
 20
-304.4899486989
 10
460.7566181747
 20
-304.7888523671
 10
457.494942057
 20
-304.8199290965
 10
454.3301352023
 20
-304.5830855877
 10
453.8415109825
 20
-304.5214392025
  0
ENDSEC
  0
SECTION
  2
OBJECTS
  0
DICTIONARY
  5
C
330
0
100
AcDbDictionary
281
     1
  3
ACAD_GROUP
350
D
  3
ACAD_LAYOUT
350
1A
  3
ACAD_MLINESTYLE
350
17
  3
ACAD_PLOTSETTINGS
350
19
  3
ACAD_PLOTSTYLENAME
350
E
  3
ACAD_SCALELIST
350
47
  0
DICTIONARY
  5
D
102
{ACAD_REACTORS
330
C
102
}
330
C
100
AcDbDictionary
281
     1
  0
DICTIONARY
  5
1A
102
{ACAD_REACTORS
330
C
102
}
330
C
100
AcDbDictionary
281
     1
  3
Layout1
350
1E
  3
Layout2
350
26
  3
Model
350
22
  0
DICTIONARY
  5
17
102
{ACAD_REACTORS
330
C
102
}
330
C
100
AcDbDictionary
281
     1
  3
Standard
350
18
  0
DICTIONARY
  5
19
102
{ACAD_REACTORS
330
C
102
}
330
C
100
AcDbDictionary
281
     1
  0
ACDBDICTIONARYWDFLT
  5
E
102
{ACAD_REACTORS
330
C
102
}
330
C
100
AcDbDictionary
281
     1
  3
Normal
350
F
100
AcDbDictionaryWithDefault
340
F
  0
DICTIONARY
  5
47
102
{ACAD_REACTORS
330
C
102
}
330
C
100
AcDbDictionary
281
     1
  3
A0
350
48
  3
A1
350
49
  3
A2
350
4A
  3
A3
350
4B
  3
A4
350
4C
  3
A5
350
4D
  3
A6
350
4E
  3
A7
350
4F
  3
A8
350
50
  3
A9
350
51
  3
B0
350
52
  3
B1
350
53
  3
B2
350
54
  3
B3
350
55
  3
B4
350
56
  3
B5
350
57
  3
B6
350
58
  3
B7
350
59
  3
B8
350
5A
  3
B9
350
5B
  3
C0
350
5C
  3
C1
350
5D
  3
C2
350
5E
  3
C3
350
5F
  3
C4
350
60
  3
C5
350
61
  3
C6
350
62
  3
C7
350
63
  3
C8
350
64
  3
C9
350
65
  3
D0
350
66
  3
D1
350
67
  3
D2
350
68
  0
LAYOUT
  5
1E
102
{ACAD_REACTORS
330
1A
102
}
330
1A
100
AcDbPlotSettings
  1

  2
none_device
  4

  6

 40
0.0
 41
0.0
 42
0.0
 43
0.0
 44
0.0
 45
0.0
 46
0.0
 47
0.0
 48
0.0
 49
0.0
140
0.0
141
0.0
142
1.0
143
1.0
 70
   688
 72
     1
 73
     0
 74
     5
  7

 75
    16
147
1.0
148
0.0
149
0.0
100
AcDbLayout
  1
Layout1
 70
     1
 71
     1
 10
0.0
 20
0.0
 11
420.0
 21
297.0
 12
0.0
 22
0.0
 32
0.0
 14
1.0000000000E+20
 24
1.0000000000E+20
 34
1.0000000000E+20
 15
-1.0000000000E+20
 25
-1.0000000000E+20
 35
-1.0000000000E+20
146
0.0
 13
0.0
 23
0.0
 33
0.0
 16
1.0
 26
0.0
 36
0.0
 17
0.0
 27
1.0
 37
0.0
 76
     0
330
1B
  0
LAYOUT
  5
26
102
{ACAD_REACTORS
330
1A
102
}
330
1A
100
AcDbPlotSettings
  1

  2
none_device
  4

  6

 40
0.0
 41
0.0
 42
0.0
 43
0.0
 44
0.0
 45
0.0
 46
0.0
 47
0.0
 48
0.0
 49
0.0
140
0.0
141
0.0
142
1.0
143
1.0
 70
   688
 72
     1
 73
     0
 74
     5
  7

 75
    16
147
1.0
148
0.0
149
0.0
100
AcDbLayout
  1
Layout2
 70
     1
 71
     2
 10
0.0
 20
0.0
 11
0.0
 21
0.0
 12
0.0
 22
0.0
 32
0.0
 14
0.0
 24
0.0
 34
0.0
 15
0.0
 25
0.0
 35
0.0
146
0.0
 13
0.0
 23
0.0
 33
0.0
 16
1.0
 26
0.0
 36
0.0
 17
0.0
 27
1.0
 37
0.0
 76
     0
330
23
  0
LAYOUT
  5
22
102
{ACAD_REACTORS
330
1A
102
}
330
1A
100
AcDbPlotSettings
  1

  2
none_device
  4
Letter_(8.50_x_11.00_Inches)
  6

 40
6.35
 41
6.35
 42
6.35000508
 43
6.35000508
 44
215.9
 45
279.4
 46
0.0
 47
0.0
 48
0.0
 49
0.0
140
0.0
141
0.0
142
1.0
143
1.0
 70
  1712
 72
     1
 73
     0
 74
     0
  7

 75
     0
147
1.0
148
0.0
149
0.0
100
AcDbLayout
  1
Model
 70
     1
 71
     0
 10
0.0
 20
0.0
 11
279.4
 21
215.9
 12
0.0
 22
0.0
 32
0.0
 14
0.0
 24
0.0
 34
0.0
 15
279.4
 25
215.9
 35
0.0
146
0.0
 13
0.0
 23
0.0
 33
0.0
 16
1.0
 26
0.0
 36
0.0
 17
0.0
 27
1.0
 37
0.0
 76
     0
330
1F
331
29
  0
MLINESTYLE
  5
18
102
{ACAD_REACTORS
330
17
102
}
330
17
100
AcDbMlineStyle
  2
Standard
 70
     0
  3

 62
   256
 51
90.0
 52
90.0
 71
     2
 49
0.5
 62
   256
  6
BYLAYER
 49
-0.5
 62
   256
  6
BYLAYER
  0
ACDBPLACEHOLDER
  5
F
102
{ACAD_REACTORS
330
E
102
}
330
E
  0
SCALE
  5
48
102
{ACAD_REACTORS
330
47
102
}
330
47
100
AcDbScale
 70
     0
300
1:1
140
1.0
141
1.0
290
     1
  0
SCALE
  5
49
102
{ACAD_REACTORS
330
47
102
}
330
47
100
AcDbScale
 70
     0
300
1:2
140
1.0
141
2.0
290
     0
  0
SCALE
  5
4A
102
{ACAD_REACTORS
330
47
102
}
330
47
100
AcDbScale
 70
     0
300
1:4
140
1.0
141
4.0
290
     0
  0
SCALE
  5
4B
102
{ACAD_REACTORS
330
47
102
}
330
47
100
AcDbScale
 70
     0
300
1:5
140
1.0
141
5.0
290
     0
  0
SCALE
  5
4C
102
{ACAD_REACTORS
330
47
102
}
330
47
100
AcDbScale
 70
     0
300
1:8
140
1.0
141
8.0
290
     0
  0
SCALE
  5
4D
102
{ACAD_REACTORS
330
47
102
}
330
47
100
AcDbScale
 70
     0
300
1:10
140
1.0
141
10.0
290
     0
  0
SCALE
  5
4E
102
{ACAD_REACTORS
330
47
102
}
330
47
100
AcDbScale
 70
     0
300
1:16
140
1.0
141
16.0
290
     0
  0
SCALE
  5
4F
102
{ACAD_REACTORS
330
47
102
}
330
47
100
AcDbScale
 70
     0
300
1:20
140
1.0
141
20.0
290
     0
  0
SCALE
  5
50
102
{ACAD_REACTORS
330
47
102
}
330
47
100
AcDbScale
 70
     0
300
1:30
140
1.0
141
30.0
290
     0
  0
SCALE
  5
51
102
{ACAD_REACTORS
330
47
102
}
330
47
100
AcDbScale
 70
     0
300
1:40
140
1.0
141
40.0
290
     0
  0
SCALE
  5
52
102
{ACAD_REACTORS
330
47
102
}
330
47
100
AcDbScale
 70
     0
300
1:50
140
1.0
141
50.0
290
     0
  0
SCALE
  5
53
102
{ACAD_REACTORS
330
47
102
}
330
47
100
AcDbScale
 70
     0
300
1:100
140
1.0
141
100.0
290
     0
  0
SCALE
  5
54
102
{ACAD_REACTORS
330
47
102
}
330
47
100
AcDbScale
 70
     0
300
2:1
140
2.0
141
1.0
290
     0
  0
SCALE
  5
55
102
{ACAD_REACTORS
330
47
102
}
330
47
100
AcDbScale
 70
     0
300
4:1
140
4.0
141
1.0
290
     0
  0
SCALE
  5
56
102
{ACAD_REACTORS
330
47
102
}
330
47
100
AcDbScale
 70
     0
300
8:1
140
8.0
141
1.0
290
     0
  0
SCALE
  5
57
102
{ACAD_REACTORS
330
47
102
}
330
47
100
AcDbScale
 70
     0
300
10:1
140
10.0
141
1.0
290
     0
  0
SCALE
  5
58
102
{ACAD_REACTORS
330
47
102
}
330
47
100
AcDbScale
 70
     0
300
100:1
140
100.0
141
1.0
290
     0
  0
SCALE
  5
59
102
{ACAD_REACTORS
330
47
102
}
330
47
100
AcDbScale
 70
     0
300
1/128" = 1'-0"
140
0.0078125
141
12.0
290
     0
  0
SCALE
  5
5A
102
{ACAD_REACTORS
330
47
102
}
330
47
100
AcDbScale
 70
     0
300
1/64" = 1'-0"
140
0.015625
141
12.0
290
     0
  0
SCALE
  5
5B
102
{ACAD_REACTORS
330
47
102
}
330
47
100
AcDbScale
 70
     0
300
1/32" = 1'-0"
140
0.03125
141
12.0
290
     0
  0
SCALE
  5
5C
102
{ACAD_REACTORS
330
47
102
}
330
47
100
AcDbScale
 70
     0
300
1/16" = 1'-0"
140
0.0625
141
12.0
290
     0
  0
SCALE
  5
5D
102
{ACAD_REACTORS
330
47
102
}
330
47
100
AcDbScale
 70
     0
300
3/32" = 1'-0"
140
0.09375
141
12.0
290
     0
  0
SCALE
  5
5E
102
{ACAD_REACTORS
330
47
102
}
330
47
100
AcDbScale
 70
     0
300
1/8" = 1'-0"
140
0.125
141
12.0
290
     0
  0
SCALE
  5
5F
102
{ACAD_REACTORS
330
47
102
}
330
47
100
AcDbScale
 70
     0
300
3/16" = 1'-0"
140
0.1875
141
12.0
290
     0
  0
SCALE
  5
60
102
{ACAD_REACTORS
330
47
102
}
330
47
100
AcDbScale
 70
     0
300
1/4" = 1'-0"
140
0.25
141
12.0
290
     0
  0
SCALE
  5
61
102
{ACAD_REACTORS
330
47
102
}
330
47
100
AcDbScale
 70
     0
300
3/8" = 1'-0"
140
0.375
141
12.0
290
     0
  0
SCALE
  5
62
102
{ACAD_REACTORS
330
47
102
}
330
47
100
AcDbScale
 70
     0
300
1/2" = 1'-0"
140
0.5
141
12.0
290
     0
  0
SCALE
  5
63
102
{ACAD_REACTORS
330
47
102
}
330
47
100
AcDbScale
 70
     0
300
3/4" = 1'-0"
140
0.75
141
12.0
290
     0
  0
SCALE
  5
64
102
{ACAD_REACTORS
330
47
102
}
330
47
100
AcDbScale
 70
     0
300
1" = 1'-0"
140
1.0
141
12.0
290
     0
  0
SCALE
  5
65
102
{ACAD_REACTORS
330
47
102
}
330
47
100
AcDbScale
 70
     0
300
1-1/2" = 1'-0"
140
1.5
141
12.0
290
     0
  0
SCALE
  5
66
102
{ACAD_REACTORS
330
47
102
}
330
47
100
AcDbScale
 70
     0
300
3" = 1'-0"
140
3.0
141
12.0
290
     0
  0
SCALE
  5
67
102
{ACAD_REACTORS
330
47
102
}
330
47
100
AcDbScale
 70
     0
300
6" = 1'-0"
140
6.0
141
12.0
290
     0
  0
SCALE
  5
68
102
{ACAD_REACTORS
330
47
102
}
330
47
100
AcDbScale
 70
     0
300
1'-0" = 1'-0"
140
12.0
141
12.0
290
     0
  0
ENDSEC
  0
EOF
